Assoli di Chitarra è un blog per amanti della chitarra. Vi potete trovare recensioni dei migliori chitarristi e dei loro assoli leggendari, sezioni per imparare a suonare la chitarra con dei veri maestri, guide, spartiti, liuteria, strumenti, amplificatori, effettistica e tantissimo altro materiale tutto rigorosamente gratuito...

Accordi Chitarra

A major


Strumenti utili

Accordatore per Chitarra online

Accordatore online

Chitarra virtuale online

Chitarra virtuale online

Ottimo generatore di Tab per Chitarra

Creare Tab Chitarra online

Prontuario degli accordi per chitarra online

Prontuario degli accordi per chitarra

Metronomo online per esercitarti ad andare a tempo

Metronomo Online

Visualizzatore di accordi e scale

Visualizzatore di accordi e scale

Effetti Chitarra

Lezioni sugli effetti per chitarra e come utilizzarli al meglio

Guida agli effetti per Chitarra

Offerte Amazon

Le migliori offerte Amazon selezionate per voi..
Seguimi su Libero Mobile

Assolo Comfortably Numb by David Gilmour

Parlando di assoli di chitarra storici non poteva di certo mancare quello di Comfortably Numb. Già dal mio nickname (Gilmour67) capirete che sono un fan del mitico chitarrista dei Pink Floyd quindi eccomi qui a parlarvi di questo stupendo assolo.

Assolo Comfortably Numb by David Gilmour

Comfortably Numb è uno dei pochi brani dell’album “The wall (1979)” non firmati completamente da Waters (bassista dei Pink Floyd), infatti se il testo è d’attribuire a quest’ultimo la melodia è stata scritta da David Gilmour che inizialmente l’aveva composta per il suo primo album da solista per poi proporla alla band durante la lavorazione di The Wall.

David Gilmour non è un musicista che esegue i suoi assoli a 1000 all’ora ma la sua tecnica e il suo tocco non hanno di certo nulla da invidiare a nessun altro chitarrista. Infatti nei suoi assoli si può sentire tutto il sentimento che ci mette, per me nessuno sa stirare, vibrare e far “fischiare” le corde attraverso gli armonici come sa fare lui. Un tocco veramente unico che lo contraddistingue e in Comfortably Numb potete ascoltare tutto questo.

Il suo sound è un altro aspetto che lo rende unico. Gilmour infatti utilizza una cascata di effetti concatenati come solo un mago come lui sa fare ma quello che esce dagli amplificatori alla fine è sempre un suono molto “fenderiano” sia nel pulito che nel distorto, brillante e dinamico ma con un timbro ineguagliabile. Ritornando all’assolo di Comfortably Numb devo dire che ne esistono diverse versioni ma quella che mi fa più impazzire è sicuramente quella eseguita su Pulse, anche se l’originale in studio rimane un caposaldo del suo repertorio.

Non mi resta che darvi il link per ascoltare l’assolo Comfortably Numb.

Qui sotto la tablatura dell’assolo centrale di Comfortably Numb:

---14vvvvvv-----12-14>15>14------------------------------------------------
------------------------------15>17vvvvvvvvvv>15--15-14--------------------
---------------------------------------------------------14----------------
-------------------------------------------------------------14\12vvvvvv---
---------------------------------------------------------------------------
---------------------------------------------------------------------------

--14>12--14>(15)>14----------------------------------------------------------
-----------------------15>17---------15--14----------------------------------
---------------------------------------------14------------------/12vvvvvv---
-------------------------------------------------14\12--11--9--7-------------
-----------------------------------------------------------------------------
-----------------------------------------------------------------------------

---------------------------------------------------------------
---------------------------------------------------------------
---11--------------11\9---9\7vvvvv----9>7------7---9---11>12---
----------14--12----------------------------9------------------
---------------------------------------------------------------
---------------------------------------------------------------

---15-14-12---------------------------------------------------
------------15-12---------------------------------------------
------------------12------------------------------------------
---------------------12vvvvvvvv--10\9vvvvvvv---10\9\7vvvvv----
--------------------------------------------------------------
--------------------------------------------------------------

			    v-- strike note
-----------------------------------------------------------
-----------------------------------------------------------
-11>(12)vvvvvvvv--9>(11)===(11)==>9>7----------------------
---------------------------------------7/9\7vvvvvvvvvvv\---
-----------------------------------------------------------
-----------------------------------------------------------

Gravidanza Miracolosa... per combattere l'infertilità e rimanere incinta in modo naturale

Lascia un commento

Il tuo indirizzo email non sarà pubblicato. I campi obbligatori sono contrassegnati *

Iscrizione alla Newsletter


Nome:
E-mail:
Ho letto l'informativa sul trattamento dei dati personali e presto il consenso.

-----------------------------------------

Chi è iscritto alla Newsletter può entrare da questo bottone nell'area riservata e scaricare le risorse gratuite dedicate ai chitarristi

-----------------------------------------

Consigli per gli acquisti

Troverete i migliori sconti di Amazon su strumenti musicali ed accessori filtrati per rapporto qualità/prezzo
Prezzi scontati su chitarre e accessori su Amazon

Kit Costruzione Chitarre e Bassi

Kit chitarre e bassi

Impara a Suonare la Chitarra

Qui sotto troverete tantissime lezioni di chitarra gratuite offerte dai migliori docenti amici di Assoli di chitarra..

Lezioni di chitarra gratuite

Sezione il Sound di David Gilmour

Il sound di David Gilmour

Amplificatori ed Effetti

La Liuteria Elettrica

Come costruirsi una Chitarra

Come costruirsi una chitarra da soli

Sezione Guitar Licks

Sezione Guitar Licks per improvvisare con la chitarra

Sezione Elettronica e Chitarra

Sezione Elettronica e Chitarra fai da te

Sezione Band Emergenti

Sezione Band Emergenti, segnala la tua Band

Segui Assoli di Chitarra sui Social

Seguici o contattaci su FacebookSeguici o contattaci su TwitterSeguici o contattaci su MyspaceSeguici o contattaci su Google plusSeguici tramite RSS

Guida al Setup della Chitarra

Setup Chitatta