Assoli di Chitarra è un blog per amanti della chitarra. Vi potete trovare recensioni dei migliori chitarristi e dei loro assoli leggendari, sezioni per imparare a suonare la chitarra con dei veri maestri, guide, spartiti, liuteria, strumenti, amplificatori, effettistica e tantissimo altro materiale tutto rigorosamente gratuito...

Accordi Chitarra

A major


Strumenti utili

Accordatore per Chitarra online

Accordatore online

Chitarra virtuale online

Chitarra virtuale online

Ottimo generatore di Tab per Chitarra

Creare Tab Chitarra online

Prontuario degli accordi per chitarra online

Prontuario degli accordi per chitarra

Metronomo online per esercitarti ad andare a tempo

Metronomo Online

Visualizzatore di accordi e scale

Visualizzatore di accordi e scale

Effetti Chitarra

Lezioni sugli effetti per chitarra e come utilizzarli al meglio

Guida agli effetti per Chitarra

Offerte Amazon

Le migliori offerte Amazon selezionate per voi..
Seguimi su Libero Mobile

Assoli di Chitarra: Hey Joe by Jimi Hendrix

Per la serie “assoli di Chitarra storici” non poteva mancare Hey Joe il pezzo portato al successo da Jimi Hendrix. In realtà questa canzone è una cover di Billy Roberts del 1962 ma raggiunse il suo apice grazie appunto alla grande interpretazione degli The Jimi Hendrix Experience cioè la mitica band di Jimi che pubblico il brano nel dicembre del 1966.

Assoli di Citarra: Hey Joe by Jimi Hendrix

Chitarristicamente parlando Hey Joe ha parecchie parti interessanti dal fraseggio dell’intro ai due piccoli assoli di centro e fine brano. Mitiche le immagini live di Hey Joe dove Hendrix deliziava il suo pubblico suonando tali assoli plettrando le corde con la bocca e poi suonando con la chitarra dietro la nuca.

Da questa canzone, pur essendo stata scritta circa 50 anni fa,  un chitarrista può apprendere tantissime tecniche e trucchetti che ancora oggi sono attualissimi e vengono insegnati da illustri maestri di chitarra. Dal legato ai bending dai power chord agli arpeggi c’è proprio tutto ed è per questo motivo che volevo approfondire un po il discorso tecnico. Qui sotto ad esempio potrete vedere la spiegazione dell’intro eseguita dall’amico di Assoli di Chitarra Antonio Orrico.



Per chi invece vuole provare a riprodurre l’assolo di Hey Joe e capire di che pasta era fatto Jimi Hendrix qui sotto può trovare la tablatura. Di seguito invece vi lascio il link al video di Hey Joe live.. tutto da vedere.

Tab Assolo Hey Joe

e|-------12-------------------------------12-12-12------|
B|-15B~~~---15-12--------------------15B~~---15-12------|
G|-------------12-14B-14p12---12~~~~~--------------14B~~|
D|-------------------------h14--------------------------|
A|------------------------------------------------------|
E|------------------------------------------------------|

e|------------------------------------------------------|
B|-12---------------------------------------------------|
G|----14--12h14p12b------12--12--------------12~~~------|
D|-------------------14----14-----------1214------14\---|
A|----------------------------------\14---14------------|
E|-------------------------------0----------------------|

e|-------------------------------12-12-12------12-------|
B|--15B----------15B~~~~~~~~~~~~-12-15-12-12B--12-15----|
G|----------------------------------------14B--------14b|
D|------------------------------------------------------|
A|------------------------------------------------------|
E|------------------------------------------------------|

e|-------------------------------------12-15B~~~12------|
B|-12-------------------------------12------------------|
G|-----------14-12~~~~~~~~~~~-14B-----------------14B---|
D|-----0--14--------------------------------------------|
A|------------------------------------------------------|
E|------------------------------------------------------|

e|-----12-----------------------------------------------|
B|--15-----15-------------------------------------------|
G|-------------14--12B~~~~~~~~~~~~~~--------------------|
D|-----------------------------------14/-----/16--14-16-|
A|-------------------------------------------/16--------|
E|----------------------------------------0-------------|

e|------------------------------------------------------|
B|-12~~~~~~~~-------------------------------------------|
G|------------------------------------------------------|
D|------------14\---------------------------------------|
A|------------14\--------14/----------------------------|
E|-------------------/10--------------------------------|

e|--------------------------------------------------0---|
B|--------------------------------------------------0---|
G|------------------------------------------------------|
D|-----------------------------------------------9------|
A|-3------------2--3--4--5--------------4--5--6--7------|
E|---0--1--2--3-------------2--3--4--5-----------0------|

e|--0-----------------------------------0---------------|
B|--0---------7--7----------------------0-9p7--9-9-7-9--|
G|------------7--7-----7--7------9--------9p7--9-9-7-9--|
D|-----7h9p7-----7--7--7--7--9---9--9-----9p7--9-9-7-9--|
A|------------------------------------------------------|
E|------------------------------------------------------|

e|------------------------------------------------------|
B|--9--9------------------------------------------------|
G|--9--9--9--9--7h9---9--7--9---------------------------|
D|--9--9--9--9--7h9---9--7--9---------------------------|
A|------------------------------------------------------|
E|-----------------------------12/---

Una risposta a Assoli di Chitarra: Hey Joe by Jimi Hendrix

  • Wenz scrive:

    E’ proprio vero: Hendrix ha iniziato una strada nuova a partire proprio da brani come questo! Se a qualcuno interessa su Hey Joe ho appena scritto un’articolo sul mio blog… ciao.

Lascia un commento

Il tuo indirizzo email non sarà pubblicato. I campi obbligatori sono contrassegnati *

Iscrizione alla Newsletter


Nome:
E-mail:
Ho letto l'informativa sul trattamento dei dati personali e presto il consenso.

-----------------------------------------

Chi è iscritto alla Newsletter può entrare da questo bottone nell'area riservata e scaricare le risorse gratuite dedicate ai chitarristi

-----------------------------------------

Consigli per gli acquisti

Troverete i migliori sconti di Amazon su strumenti musicali ed accessori filtrati per rapporto qualità/prezzo
Prezzi scontati su chitarre e accessori su Amazon

Kit Costruzione Chitarre e Bassi

Kit chitarre e bassi

Impara a Suonare la Chitarra

Qui sotto troverete tantissime lezioni di chitarra gratuite offerte dai migliori docenti amici di Assoli di chitarra..

Lezioni di chitarra gratuite

Sezione il Sound di David Gilmour

Il sound di David Gilmour

Amplificatori ed Effetti

La Liuteria Elettrica

Come costruirsi una Chitarra

Come costruirsi una chitarra da soli

Sezione Guitar Licks

Sezione Guitar Licks per improvvisare con la chitarra

Sezione Elettronica e Chitarra

Sezione Elettronica e Chitarra fai da te

Sezione Band Emergenti

Sezione Band Emergenti, segnala la tua Band

Segui Assoli di Chitarra sui Social

Seguici o contattaci su FacebookSeguici o contattaci su TwitterSeguici o contattaci su MyspaceSeguici o contattaci su Google plusSeguici tramite RSS

Guida al Setup della Chitarra

Setup Chitatta